Online Guitar Lesson E Major Scale

Upgrade your Flash Player to version 8 to view this video! (Click here for the download)

Add video to any website

***Chord Diagrams and Scales Tablature Below

Grab Your Free 62 Page Guitar Lesson Book


Enter Your Name:
Enter your Email:
To Get Your FREE
62 Page Guitar Lesson Book
Enter Your Email in the Above Form.
Thank you.


Your information will always be kept confidential.
You can opt-out any time.




Chords Used:




E Major 7 Chord Tablature
E|--7----
B|--9----
G|--8----
D|--9----
A|--7-----
E|--------


A Major 6 Chord Tablature
E|----5--
B|----7--
G|----6--
D|----7--
A|-------
E|--------

Major Scale Tablature:



First (Lower) Octave

E|------------------------------
B|------------------------------
G|------------------------8--9--
D|-----------------9--11--------
A|------9--11--12---------------
E|--12--------------------------

Sencond or Higher Octave

E|--------------------9--11--12--
B|---------9--10--12-------------
G|--9--11------------------------
D|-------------------------------
A|-------------------------------
E|-------------------------------

Play better Guitar - Click Here Now!



Check Out These Other FREE Lessons
#1 Learn a Blues Guitar Riff »
#2 Learn How to Play Pull Offs »
#3 KIDS! - Learn How to Play A Guitar Song »
#5 Quick Electric Riff »




Home |Privacy Policy | Contact Us