Check out this Great Video
on Pull-Offs
Find out how to build strength and speed in your fingers.
Tablature Below:

Upgrade your Flash Player to version 8 to view this video! (Click here for the download)

Put streaming video on my website

Grab Your Free 62 Page Guitar Lesson Book

Enter Your Name:
Enter your Email:
Sign up for Your FREE
62 Page Guitar Lesson Book
Enter Your Email address in the Form above.
Thank you.


Your private information will always be kept strictly confidential.
You can opt-out at any time.

G Major Scale Pull off 4 times:

E|--3--3--3--3--2--2--2--2--------------------------
B|--------------------------5--5--5--5--3--3--3--3--
G|--------------------------------------------------
D|--------------------------------------------------
A|--------------------------------------------------
E|--------------------------------------------------

E|--------------------------------------------------
B|--------------------------------------------------
G|--5--5--5--5--4--4--4--4--2--2--2--2--------------
D|--------------------------------------5--5--5--5--
A|--------------------------------------------------
E|--------------------------------------------------

E|--------------------------------------------------
B|--------------------------------------------------
G|--------------------------------------------------
D|--4--4--4--4--2--2--2--2--------------------------
A|--------------------------5--5--5--5--3--3--3--3--
E|--------------------------------------------------

E|--------------------------------------
B|--------------------------------------
G|--------------------------------------
D|--------------------------------------
A|--2--2--2--2--------------------------
E|--------------5--5--5--5--3--3--3--3--

Home | Privacy Policy | Contact Us
Check Out These Other FREE Lessons
#1 Learn a Blues Guitar Riff »
#3 KIDS! - Learn How to Play A Guitar Song »
#4 Learn How to Play Chords »
#5 Quick Electric Riff »